aprender jazz

Tema en 'Música' iniciado por david1414, 21 Ene 2011.

  1. dav

    david1414
    Expand Collapse
    Cabo

    Mensajes:
    134
    Me Gusta recibidos:
    2
    Al igual que en el Blues y en le Rock la progresion básica del Jazz consiste en tres intervalos dispuestos de la siguiente forma: II-V7-I, de manera que la tonica va a estar marcada por el ultimo grado de la misma. Se utilizan acordes septimas y dominantes para darle un sonido peculiar, bien caracterisica del estilo. Uno de los sonidos populares del Jazz es el uso de acordes alternados, estos marcan la gran diferencia con otros estilos de musica. El sonido mas jazzistico puede escucharse en los acordes dominantes 7ma con la 5ta disminuida, la formala de este serie: I-III-bV-bIIV o bien 1-3-5b-7b. Los acordes de jazz suelen ser muy complicados y los cambios bastante dificiles de lograr, pero con paciencia y con saliva... El ser un buen musico de Jazz requiere de mucha habilidad y conocimiento, un ejemplo de un excelente guitarrista de Jazz argentino es Luis Salinas, quien toca diferentes estilos de musica tambien.
    En el siguiente cuadro hay algunas progresiones basicas en varias tonalidades. Nota que son progresiones básicas, suelen usarse mas acordes alterados reemplazando los acordes basicos.

    En D

    Emin7 A7 Dmaj7
    / / / / / / / / / / / / / / / /

    En C

    Dmin7 G7 Cmaj7
    / / / / / / / / / / / / / / / /

    En Bb

    Cmin7 F7 Bbmaj7
    / / / / / / / / / / / / / / / /

    En el siguiente cuadro se muestran las progresiones de Jazz comunes en todas las tonalidades



    Tonalidad II V7 I
    C Dmin7 G7 Cmaj7
    F Gmin7 C7 Fmaj7
    Bb Cmin7 F7 Bbmaj7
    Eb Fmin7 Bb7 Ebmaj7
    Ab Bbmin7 Eb7 Abmaj7
    Db Ebmin7 Ab7 Dbmaj7
    Gb Abmin7 Db7 Gbmaj7
    B C#min7 F#7 Bmaj7
    E F#min7 B7 Emaj7
    A Bmin7 E7 Amaj7
    D Emin7 A7 Dmaj7
    G Amin7 D7 Gmaj7

    La siguiente progresion es bastante mas dificil que las comunes, inteta tocarla sin usar distorsion ni nada de eso.

    Fmaj7 Cmin7 F7b5 Bbmaj7 Bbdim7 Gdim7 Amin7
    E--------------|---------------|-----------|------------|----------
    B--1--3--5--6--|--8--10--6-----|--6--8--6--|--5--2------|-----5----
    G--2-----5-----|--8------8--7--|--7--------|--6--3--3---|--5-------
    D--2-----3-----|--8------7-----|--7--------|--5--2------|--5-------
    A--------------|---------------|-----------|------------|----------
    E--1-----5-----|--8------7-----|--6--------|--6--3------|--5-------

    D7b5 Gmin7 C7b5 Amin7 D7b5 Gmin9 C7b5 Fmaj7

    E--------|-----5--------|------10--10------|----------------|--5-----
    B--3--5--|--6-----7--8--|--13------9---10--|--10--11--7--8--|--5--8--
    G--1-----|--7-----9-----|--12------11------|--10------9-----|--5-----
    D--4-----|--5-----8-----|--10------10------|--8-------8-----|--7-----
    A--3-----|--------------|--12--------------|--10------------|--8-----
    E--------|--6-----8-----|------------------|----------8-----|--------


    Cmin7 F7b5 Bbmaj7 Dbdim7 Bbdim7 Amin7 D7b5
    E----|--------------|-------------|-------------|--8--------------|
    B-6--|--8--10--6----|-10--10--11--|--8-----5----|--8--10--9---10--|
    G----|--8------8--8-|-10----------|--9-----6----|--5------11------|
    D----|--8------7----|-8-----------|--8-----5----|--7------10------|
    A----|--------------|-------------|-------------|-----------------|
    E----|--8------7----|-10----------|--9-----6----|---------10------|


    Gmin7 C7b5 F6 Bbmin6 F6

    E---10-------------|----------|-----|-------------------
    B---11--11--11-----|--6----6--|--6--|-------------------
    G---10------11--9--|--7----6--|--7--|-------------------
    D---12------14-----|--7----5--|--7--|-------------------
    A---10------15-----|----------|-----|-------------------
    E------------------|--8----6--|--8--|-------------------



    espero les sirva
     

Compartir esta página