Letras y tonos de alguans canciones

Tema en 'Música' iniciado por PablitoArG, 25 Sep 2007.

Estado del tema:
Cerrado para nuevas respuestas
  1. Pab

    PablitoArG
    Expand Collapse
    Sargento

    Mensajes:
    272
    Me Gusta recibidos:
    0
    Kudai

    Aun

    Intro: Do - Sol- Fa- Mim - Rem - Lam – Fa - Sol

    Do Sol
    cae la lluvia en mi
    Fa
    se hace de noche al fin
    Mim
    y hoy tu no estas aqui
    Rem
    ya la historia se acabo
    Lam
    nuestro libro se cerro
    Fa Sol
    y ya no queda nada, solo recuerdos y amor

    Do Sol
    puedo verte aqui y sentirte en mi
    Fa Mim
    y aunque ya no estemos juntos , aun guardo en mi
    Rem Lam
    lo más dulce de tu amor , ya lo amargo se olvido
    Fa Sol
    ya no quiero nada , solo que sepas mi amor

    Coro:
    Do Sol
    que aun te amo (te amo)
    Lam Min
    que aun te espero (te sueño)
    Rem Do
    y siempre voy a estar,
    Fa Sol Lam
    aun cuando tu estes lejos de mi.

    Do Sol
    tu foto en el cajon
    Fa Mim
    tus cartas y el amor, se fueron con el sol
    Rem Lam
    que una tarde se escondio,y que nunca más volvio
    Fa Sol
    y ahora espero aqui, sentada en nuestro balcón.

    Do Sol
    y ahora pienso en ti, y talvez tú en mi
    Fa Mim
    y en las noches cuando sueño voy al jardin
    Rem Lam
    donde aun vive la flor que brotó de nuestro amor
    Fa Sol
    y quizas mañana vuelva a renacer el sol...

    Coro:
    Do Sol
    que aun te amo (te amo)
    Lam Min
    que aun te espero (te sueño)
    Rem Do
    y siempre voy a estar,
    Fa Sol
    aun cuando tu estes lejos....

    Do Sol
    yo te esperare aqui
    Fa Mim
    sentada sobre el suelo en aquel jardin
    Rem Lam
    donde aun vive la flor que broto de nuestro amor
    Fa Sol
    y quiero que sepas que estoy aqui amor


    Do Sol
    que aun te amo (te amo)
    Lam Min
    que aun te espero (te sueño)


    Fa-Do-Rem-Sol

    Do
    yo te esperare...


    Dejame Gritar

    Intro: Lam Fa Sol

    Lam Fa Do
    Recuerdos que llevo en la piel
    Sol Lam
    de noches frías del ayer
    Fa
    tu sombra quemó mi fe
    Do Sol
    no existe hoy nada que perder.


    Fa
    Sólo quiero ver la noche pasar
    Ya sin oscuridad
    Y arrancar de este infierno (Amor)
    Sol
    Sólo quiero en tu mirada acabar
    Mi
    Ser la luz del tiempo.

    Lam
    Déjame gritar (No hay vuelta atrás)
    Fa
    la herida matar (Que importa ya)
    Do
    voy a comenzar (Quiero olvidar)
    Sol Mi
    llegar hasta el final.

    Déjame volar (Sin regresar)
    No voy a llorar (Sólo gritar)
    Y recomenzar (Puedo saltar)
    Sol Mi Fa
    Ir hasta el final

    Mi
    Que nada ya nos pueda alcanzar.

    e------------
    b------------
    G---------2v-
    D-------2----
    A-0-2-3------
    E------------

    Recuerdos mil sueños
    Que se apagaron con el sol
    Sin nadie y sin nada
    Que me ilumine el corazón.

    Sólo quiero ver la noche pasar
    Ya sin oscuridad
    Y arrancar de este infierno (Amor)
    Sólo quiero en tu mirada acabar
    Ser la luz del tiempo.

    Déjame gritar (No hay vuelta atrás)
    La herida matar (Que importa ya)
    Voy a comenzar (Quiero olvidar)
    Llegar hasta el final.

    Déjame volar (Sin regresar)
    No voy a llorar (Sólo gritar)
    Y recomenzar (Puedo saltar)
    Ir hasta el final

    Que nada ya nos pueda alcanzar.

    e------------
    b------------
    G---------2v-
    D-------2----
    A-0-2-3------
    E------------

    DESPUES DE LA PARTE SUEVE VA EL SOLO DE TECLADO,
    AL RATO SE LOS MANDO ASI VAN LOS ACORDES

    Piano: Lam Fa Do Sol Fa Sol Mi Lam

    Electrica : //Lam Fa Do Sol Mi//:2

    Déjame gritar (No hay vuelta atrás)
    La herida matar (Que importa ya)
    Voy a comenzar (Quiero olvidar)
    Llegar hasta el final.

    Déjame volar (Sin regresar)
    No voy a llorar (Sólo gritar)
    Y recomenzar (Puedo saltar)
    Ir hasta el final

    Que nada ya nos pueda alcanzar.

    e-----------------5v
    b---------------5---
    G---------2-4-5-----
    D-------2-----------
    A-0-2-3-------------
    E-------------------

    Escapar

    ACORDES:> DO SOL FA FAm MIm LA LA7

    ACORDES:> DO SOL FA FAm MIm LA LA7

    Intro: Do – Sol – Fa - Fam
    Do – Sol – Fa – Fam

    Do Sol Fa Fam
    Veo sombras que se apagan
    Do Sol Fa Fam
    De mil fotos del ayer
    Do Sol Fa Fam
    Mil recuerdos que se acaban
    Do Sol Fa Fam
    Quedan sueños aún por ver

    CORO:
    Do Mim
    Quiero escapar y despertar
    La La7
    Sin saber del tiempo
    Fa
    Quiero respirar
    Fam
    Sin nunca regresar
    Do Mim
    Y quiero vivir, quiero existir
    La La7
    Sentir el silencio
    Fa
    Ya no quiero hablar
    Fam
    Solo quiero encontrar
    Do – Sol – Fa - Fam
    Un día de Paz

    Do – Sol – Fa - Fam

    Do Sol Fa Fam
    Veo las calles del mañana
    Do Sol Fa Fam
    Veo la ausencia del Ayer
    Do Sol
    Y mil sueños, que se fueron
    Fa Fam
    Mil historias que se hundieron
    Do Sol Fa Fam
    Como barcos, que se pierden en el mar

    CORO:
    Do Mim
    Quiero escapar y despertar
    La La7
    Sin saber del tiempo
    Fa
    Quiero respirar
    Fam
    Sin nunca regresar
    Do Mim
    Y quiero vivir, quiero existir
    La La7
    Sentir el silencio
    Fa
    Ya no quiero hablar
    Fam
    Solo quiero encontrar
    Do – Sol – Fa - Fam
    Un día de Paz

    Do – Sol – Fa – Fam (x2)

    CORO:
    Do Mim
    Quiero escapar y despertar
    La La7
    Sin saber del tiempo
    Fa
    Ya no quiero hablar
    Fam
    Solo quiero encontrar
    Do – Sol – Fa - Fam
    Un día de Paz
    Do – Sol – Fa - Fam
    Un día de Paz

    Do Sol
    Yo solo quiero escapar (Quiero escapar)
    Fa Fam
    Nunca regresar (y ya no quiero nunca regresar)
    Do Sol
    Y quiero escapar (ya nos aleja más del tiempo)
    Fa Fam
    y no regresar (solo quiero estar en silencio)

    Do – Sol – Fa – Fam (x2)
    Do


    Lejos de la Ciudad

    ||--------------------------------------------------------||
    ||-----0-----0-------0-----------0-----0-------0--------0-||
    ||---3-----3-------3---3-------3-----3-------3---3------3-||
    ||-1-------------4-------4---1-------------4-------4----4-||
    ||-------4-----2-----------2-------4-----2-----------2--2-||
    ||--------------------------------------------------------||


    Fa#
    El mismo lugar
    La#m
    Las calles y el mar
    Si Sim Fa#
    La luna ilumina las horas de mi soledad
    Do# Sol#m Si Sim
    ¿Y donde estas?

    Fa#
    Aun puedo escuchar
    La#m
    Tus pasos tu andar
    Si Sim
    El viento me trae los besos que hoy ya no
    Fa# Do# Sol#m Si Sim
    Estarán ¿Y donde estas?
    Sol#m Do# Do#7
    Yo aquí te espero…


    Coro.-

    Sol#m Si Fa# La#m
    Y aun recuerdo ese momento
    Sol#m Si Fa# Fa#/Mi
    Tus besos al despertar
    Sol#m Si Fa# La#m
    La brisa el viento, la luz del puerto
    Sol#m Si
    Tan lejos de la ciudad…

    ||------------------------------------------------------
    ||-----0-----0-------0-----------0-----0-------0--------
    ||---3-----3-------3---3-------3-----3-------3---3------
    ||-1-------------4-------4---1-------------4-------4----
    ||-------4-----2-----------2-------4-----2-----------2--
    ||------------------------------------------------------



    El frió se irá, la luz volverá Y espero que entonces el tiempo nos

    -------------------------------------------------
    -------------------2-----------4-----------3-----
    -------3---------3---3-------4---4-------4---4---
    -----4---4-----3-------3---4-------4---4-------4-
    ---4-------4-1-----------2-----------2-----------
    -2-----------------------------------------------

    vuelva a encontrar ¿Donde estarás?

    --------------------------------------------------||
    -------------------6-----------4-----------4------||
    -------3---------6---6-------4---6-------4---4----||
    -----4---4-----6-------6---6-------4---4-------4--||
    ---4-------4-4-----------6-----------2------------||
    -2------------------------------------------------||


    Sol#m Do# Do#7
    Yo aquí te espero…


    Sol#m Si Fa# La#m
    Y aun recuerdo ese momento
    Sol#m Si Fa# Fa#/Mi
    Tus besos al despertar
    Sol#m Si Fa# La#m
    La brisa, el viento, la luz del puerto
    Sol#m Si Fa#m Do#
    Tan lejos de la ciudad…

    Mim - Si - Re - La – Do#


    Sol#m Si Fa# La#m
    Y aun recuerdo ese momento
    Sol#m Si Fa# Fa#/Mi
    Tus besos al despertar
    Sol#m Si Fa# La#m
    La brisa, el viento, la luz del puerto
    Sol#m Si Fa# Fa#/Mi
    Tan lejos de la ciudad
    Sol#m Si Fa# La#m
    Tan lejos de la ciudad
    Sol#m Si Fa# Fa#/Mi
    Tan lejos de la ciudad
    Sol#m Si
    Tan lejos de la ciudad…

    ||--------------------------------------------------------||
    ||-----0-----0-------0-----------0-----0-------0--------0-||
    ||---3-----3-------3---3-------3-----3-------3---3------3-||
    ||-1-------------4-------4---1-------------4-------4----4-||
    ||-------4-----2-----------2-------4-----2-----------2--2-||
    ||--------------------------------------------------------||

    Que aki que alla

    Intro

    Re# La# Do Sol#
    e|-------------------------------------|
    B|-------------------------------------|
    G|-------------------------------------|
    D|-3-3-5---5-3-3-5-----3-3-5---5-3-3-5-|
    A|-------------------------------------|
    E|-------------------------------------|


    Fa Do Rem
    ven ya deja de llorar levantate del suelo
    La#
    que ya no queda tiempo que esperar
    Fa Do Rem
    y hey! es hora de salir la noche esta esperando
    La# Do
    seguro que habra algun lugar sin fin
    Solm Do
    quiero verte en la oscuridad
    La#
    toco un sueño que ahora es realidad

    CORO:
    Fa La# Do
    que aqui que alla no importa donde estar
    Fa La# Do
    sin bien sin mal yo te voy a esperar
    Rem La# do
    dame un beso llevame de aqui


    Fa Do Rem
    no no quiero regresar el tiempo esta corriendo
    La#
    es hora de sentir la libertad
    Fa Do Rem
    y ven,ya no dudes mas,y que nos lleve el viento
    La# Do
    hasta donde este nos quiera llevar
    Solm Do
    quiero verte en la oscuridad
    La#
    toco un sueño que ahora es realidad

    Coro.

    e|--------------------------------------------------|
    B|--------------------------------------------------|
    G|--------------------------------------------------|
    D|--7-8-7-------8-7---8/10---8-7---8-7---8-7---3----|
    A|--------8-3-------8------------8-----8-----8------|
    E|--------------------------------------------------|

    e|------------------------------------------------------------|
    B|------------------------10/11-10----10/11-10----13-13/15-13-|
    G|--10-10-10/12-9-9-10-12----------10----------10-------------|
    D|------------------------------------------------------------|
    A|------------------------------------------------------------|
    E|------------------------------------------------------------| Do

    Solm Do
    quiero verte en la oscuridad
    La#
    toco un sueño que ahora es realidad

    Coro.

    Fa La# Do
    que aqui que alla no importa donde
    Fa La# Do
    sin bien sin mal yo te voy a esperar
    Fa La# Do
    quiero correr, sentir, vivir, quiero reir

    cada vez llegar mas lejos. X2
    Fa La# Do
    que aqui que alla no importa donde
    Fa La# Do
    sin bien sin mal yo te voy a esperar

    Fa – La# - Do…


    Como me duele

    *El intro es con 2 guitarras asi que esta es la guitarra base

    Guitarra:
    e|-----------------------------3333--3-2---3-2---
    B|-----------------------------3333------3-----3-
    G|-------0-----------0---------0000--------------
    D|----4-----4-----4-----4------2222--------------
    A|-7-----------5-----------5---3333--------------
    E|-----------------------------------------------

    Esto es lo de la segunda guitarra al momento en que
    la primera hace los rasgueos del acorde (Cadd9)

    e|-3---2-
    B|---2---

    Esto lo hace otra vez la primer guitarra al terminar de
    hacer los rasgueos del acorde

    e|-----------------------------0-
    B|-----------------------------3-
    G|-------0-----------0---------0-
    D|----4-----4-----4-----4------2-
    A|-7-----------5-----------5---3-
    E|-------------------------------


    Em7/F# Cadd9
    Se me termina el tiempo
    Em7/F# Cadd9
    Ya no puedo estar un dia mas sin ti
    Em7/F# Cadd9
    Ya las lagrimas empiezan a salir
    Em7/F# Cadd9
    He comenzado a ver lo bello de un principio
    Em7/F# Cadd9
    Y lo triste de un final

    Coro:
    Cadd9/G
    Pero como me duele el miedo a tenerte
    G Em7/F#
    Como tenerte si ya me duele perderte
    Cadd9/G
    Pero como me duele el miedo a tenerte
    G Em7/F# Cadd9
    Como tenerte si ya me duele perderte, ehhh
    G Em7/F#
    Me duele perderte

    GUITARRA

    Em7/F#
    Tu abrazo es un respiro
    Cadd9
    Con un beso me mantienes vivo
    Em7/F# Cadd9
    Tu mirada es un bello amanecer, ehhh
    Em7/F# Cadd9
    Si tanto he esperado poder sentir algo tan grande
    Em7/F# Cadd9
    Es muy triste ver su final

    CORO
    Em7 D Cadd9
    Si tanto he esperado poder sentir algo tan grande
    Em7 D Cadd9
    Es muy triste ver su final


    ACORDES:
    Em7/F#=0x2032
    Cadd9=x32033
    Cadd9/G=332030
    G=320033

    Me duele Amarte

    Me duele Amarte

    G Am
    Sabiendo Que ya Te perdi
    Em F
    Tan Solo Quedara la Lluvia
    C G
    Mojando mi Llanto y me hablara de ti
    C
    Me Duele Amarte
    G Am
    Los Sueños Que eran para ti
    Em F
    Se pierden con cada palabra
    C G
    Con cada Momento que espere de Vivir...
    Am
    Me duele mas imaginar
    Em
    Que tu te vas y dejaras
    F G
    Detras de ti, Tu ausencia en mis brazos
    Am
    Me Duele Tanto sospechar
    Em
    Que ni tu sombra Volvera
    F G
    Para abrigar mi alma en pedazos...

    Coro
    C G Am Em F
    Me duele amarte asi, hasta morir
    C G
    lansandome a la nada viendote partir
    C G Am Em F
    Me duele aquel abril, cuando te vi
    C G
    por vez primera y dije que eras para mi
    C
    me duele amarte tanto...

    Se repite desde Me duele amarte los sueños que era...





    PD: EStas son las que mas me gustan si ustedes quieren mas solo diganme cuales y se las posteare:adios:
     
Estado del tema:
Cerrado para nuevas respuestas

Compartir esta página