Manual de como leer las tabladuras de la guitarra [notas y acordes] FACIL!!

Tema en 'Guías y Tutoriales' iniciado por Magestyk, 30 Ene 2010.

  1. Mag

    Magestyk
    Expand Collapse
    Capitán

    Mensajes:
    741
    Me Gusta recibidos:
    5
    La parte que más nos interesa aprender de la guitarra es el mástil. En el mástil se encuentran los trastes, que son las subdivisiones que tiene el mástil. La guitarra tiene 6 cuerdas de distinto grosor, la más fina y que está más abajo, es la denominada primera cuerda, la siguiente es la segunda, y así hasta llegar a la sexta cuerda que es la más gruesa.

    ......---\
    Mi 1ra. ||---------|----------|----------|------… Cuerda mas fina (Primera)
    Si 2da. ||---------|----------|----------|------…
    Sol 3ra.||---------|----------|----------|--…
    Re 4ta. ||---------|----------|----------|------…
    La 5ta. ||---------|----------|----------|------…
    Mi 6ta. ||--------@|----------|----------|------… Cuerda mas gruesa (Sexta)
    ......___/1 Traste . 2 Traste . 3 Traste . 4 Traste . 5 Traste

    MASTIL DE LA GUITARRA


    Nota: @ es onde se debe poner el dedo. No en el medio, ni arriba de la barra de metal, si no justo al lado.

    --------------------------------------…



    Lo primero que tienes que aprender para saber tocar tablaturas de guitarra o bajo, es que las tablaturas son como si fueran partituras que estan hechas para la guitarra, aunque no con toda la información que te daria una partitura, como por ejemplo los tiempos en que tienes que tocar cada nota en el punteo de las canciones. Por lo cual tienes que haber escuchado antes las canciones de la cuales quieres tocar usando las tablaturas. La tablatura esta compuesta de seis líneas horizontales que representan las seis cuerdas de la guitarra, la línea de arriba es la primera cuerda y la ultima línea es la sexta cuerda de la guitarra.


    e------------------------------primera cuerda
    B------------------------------segunda cuerda
    G------------------------------tercera cuerda
    D------------------------------cuarta cuerda
    A------------------------------quinta cuerda
    E------------------------------sexta cuerda



    Dentro de esta líneas van a estar representados unos números que representan el traste que debes de pulsar en el mastil de la guitarra.


    Como ejemplo esta tablatura:

    e----1-------------------------
    B------------------------------
    G-------3----------------------
    D----------5-------------------
    A------------------------------
    E------------------------------

    Esto quiere decir que debes comenzar el punteo de guitarra pisando la cuerda primera(e) en el traste 1, después sigue la cuerda tercera(G) en el traste 3, después sigue la cuerda cuarta(D) en el traste 5; es facil, solo tienes que seguir los números y ya esta hecho el punteo. Hasta aqui facil.

    NOTA: Un 0 en la tablatura indica que hay que tocar la cuerda al aire (sin pulsarla)





    Cuando encuentres en las tablaturas unos números encima de otros (acordes), los tienes que tocar al mismo tiempo y cada uno en su traste. Se trataria de un acorde y se definiria como: dos o más notas sonando al mismo tiempo.

    Ejemplo de acorde:

    e--2---------------------------primera cuerda
    B--3---------------------------segunda cuerda
    G----4-------------------------tercera cuerda
    D------------------------------cuarta cuerda
    A------------------------------quinta cuerda
    E------------------------------sexta cuerda

    Aqui hay dos notas una encima de otra, sin dejar un espacio. Esto lo tienes que tocar al mismo tiempo, o sea la primera cuerda de la guitarra pisada en el traste 2 y la segunda cuerda pisada en el traste 3, presionas las dos cuerdas juntas en el traste que te indica y las tocas al mismo tiempo y de ahí pasa a la otra nota que es la tercera cuerda en el traste 4.


    Acordes de guitarra

    Dom = cm
    e----3--------------------------primer… cuerda
    B----4--------------------------segund… cuerda
    G----5--------------------------tercer… cuerda
    D----5--------------------------cuarta cuerda
    A----3--------------------------quinta cuerda
    E-------------------------------sexta cuerda

    Esto es un acorde. Arriba va el nombre del acorde y abajo como se ponen los dedos según los números, es facil y con la practica podrás dominarlos.

    Acordes basicos para guitarra puestos en tablatura:



    E5 F5 F#5 G5 G#5A5 A#5 B5 C5 C#5D5 D#5

    |-------------------------------------…
    |-------------------------------------…
    |------9--------10--------------------…
    |-2----9---3----10---4---5---6---7----…
    |-2-or-7---3-ó---8---4---5---6---7-ó--…
    |-0--------1---------2---3---4---5----…


    Acordes menores de guitarra

    Em Fm Gm Am Bm Cm Dm

    |-0---1---3---0---2---3---1-|
    |-0---1---3---1---3---4---3-|
    |-0---1---3---2---4---5---2-|
    |-2---3---0---2---4---5---0-|
    |-2---3-------0-------------|
    |-0---1---------------------|


    -ESTE ES LA PRMERA PARTE DEL TUTORIAL LA SEGUNDA LA SUBIRE EL 2 SEMANAS O ASI Y ES LINK ESTARA AKA
    LINK:
    EN PROCESO..

    -EN LA SEGUNDA PARTE EXPLICARE CON IMAGENES COMO USAR LOS DIFERENTES TIPOS DE ACORDES Y LA RESONANCIA


    NO TE OLVIDES DEL
    [​IMG]

     
  2. maq

    maquiu
    Expand Collapse
    Capitán

    Mensajes:
    619
    Me Gusta recibidos:
    0
    GRACIAS.... espero la segunda parte...

    saludos
     
  3. Ava

    AvatarAang
    Expand Collapse
    Mayor
    Usuario destacado

    Mensajes:
    994
    Me Gusta recibidos:
    0
    me biene bien yo queria aprender a tocar, espero q puedas poner la segunda parte
     
  4. Dre

    Dreigons
    Expand Collapse
    Soldado Raso

    Mensajes:
    66
    Me Gusta recibidos:
    0
    Hey bastante bueno para los que recién comienzan a tocar, gracias. ;)
     
  5. -=-DangerousSs-=-

    -=-DangerousSs-=-
    Expand Collapse
    Subteniente

    Mensajes:
    415
    Me Gusta recibidos:
    14
    Un buen comienzo para los nuevos en la guitarra, ojala pongas la segunda parte y si kieren resaltar un poco mas entren a lacuerda.net , ai hay algunos tutoriales interesantes.
     
  6. Six

    SixCandy
    Expand Collapse
    Teniente Coronel

    Mensajes:
    1.174
    Me Gusta recibidos:
    1
    Esta bueno aunke le falta mucho espero que si hagas la segunda parte con todos los acordes basicos El Do menor Mayor el Re y todo eso
     
  7. jam

    jamesdevi
    Expand Collapse
    Cabo

    Mensajes:
    149
    Me Gusta recibidos:
    0
    ya lo sabia pero muy bueno para los nuevos ! Buen Aporte !
     

Compartir esta página