Pidanme Acorde De Guitarra

Tema en 'Música' iniciado por XGreendayX, 23 Ene 2009.

  1. XGr

    XGreendayX
    Expand Collapse
    Sargento

    Mensajes:
    268
    Me Gusta recibidos:
    0
    Bueno.. este post es para los que buscan acordes o trastes de una cancion en gitarra.. :D

    Solo digan el nombre de la cancion y el grupo y yo le pongo como tocarlo.. ^^!!

    no se olviden de dar ``gracias´´

    [​IMG]
     
  2. Dar

    DarknesS
    Expand Collapse
    Subteniente

    Mensajes:
    581
    Me Gusta recibidos:
    0
    Respuesta: Pidanme Acorde De Guitarra

    Bueno yo quiero
    cancion: snuff
    grupo:slipknot
     
  3. XGr

    XGreendayX
    Expand Collapse
    Sargento

    Mensajes:
    268
    Me Gusta recibidos:
    0
    Respuesta: Pidanme Acorde De Guitarra

    Bueno aqui esta:



    |0| |0| |0| |x| |0|
    |0| |0| |0| |x| |3|
    |0| |0| |0| |0| |0|
    |2| |2| |0| |0| |2|
    |2| |3| |3| |0| |x|
    |0| |3| |3| |0| |x|


    E
    e |---|---|---|---|---|
    B |---|---|---|---|---|
    G |-x-|---|---|---|---|
    D |---|-x-|---|---|---|
    A |---|-x-|---|---|---|
    E |---|---|---|---|---|
    E
    (m)
    C
    e |---|---|-x-|---|---|
    B |-x-|---|---|---|---|
    G |---|---|---|---|---|
    D |---|-x-|---|---|---|
    A |---|---|-x-|---|---|
    E |---|---|---|---|---|
    C
    (m)
    Cm
    e |---|---|---|---|---|
    B |-x-|---|---|---|---|
    G |---|---|---|---|---|
    D |-x-|---|---|---|---|
    A |---|---|-x-|---|---|
    E |---|---|---|---|---|
    Cm
    (o)
    E
    e |---|---|---|---|---|
    B |---|---|---|---|---|
    G |-x-|---|---|---|---|
    D |---|-x-|---|---|---|
    A |---|-x-|---|---|---|
    E |---|---|---|---|---|
    E
    (m)
    D
    e |---|-x-|---|---|---|
    B |---|---|-x-|---|---|
    G |---|-x-|---|---|---|
    D |---|---|---|---|---|
    A |---|---|---|---|---|
    E |---|---|---|---|---|
    D


    E
    e |---|---|---|---|---|
    B |---|---|---|---|---|
    G |-x-|---|---|---|---|
    D |---|-x-|---|---|---|
    A |---|-x-|---|---|---|
    E |---|---|---|---|---|
    E
    ,(o)
    E
    e |---|---|---|---|---|
    B |---|---|---|---|---|
    G |-x-|---|---|---|---|
    D |---|-x-|---|---|---|
    A |---|-x-|---|---|---|
    E |---|---|---|---|---|
    E
    ,(m)
    C
    e |---|---|-x-|---|---|
    B |-x-|---|---|---|---|
    G |---|---|---|---|---|
    D |---|-x-|---|---|---|
    A |---|---|-x-|---|---|
    E |---|---|---|---|---|
    C
    ,(m)
    Cm
    e |---|---|---|---|---|
    B |-x-|---|---|---|---|
    G |---|---|---|---|---|
    D |-x-|---|---|---|---|
    A |---|---|-x-|---|---|
    E |---|---|---|---|---|
    Cm
    - Repeat 2x


    E
    e |---|---|---|---|---|
    B |---|---|---|---|---|
    G |-x-|---|---|---|---|
    D |---|-x-|---|---|---|
    A |---|-x-|---|---|---|
    E |---|---|---|---|---|
    E
    (o)E(m)
    C
    e |---|---|-x-|---|---|
    B |-x-|---|---|---|---|
    G |---|---|---|---|---|
    D |---|-x-|---|---|---|
    A |---|---|-x-|---|---|
    E |---|---|---|---|---|
    C
    (m)
    Cm
    e |---|---|---|---|---|
    B |-x-|---|---|---|---|
    G |---|---|---|---|---|
    D |-x-|---|---|---|---|
    A |---|---|-x-|---|---|
    E |---|---|---|---|---|


    :arriba::D
     
  4. jos

    joseandres
    Expand Collapse
    Recluta

    Mensajes:
    37
    Me Gusta recibidos:
    0
    Respuesta: Pidanme Acorde De Guitarra

    aver si me puedes conseguir una de romantica ^^
    artista : reik
    cancion: saves
     
  5. XGr

    XGreendayX
    Expand Collapse
    Sargento

    Mensajes:
    268
    Me Gusta recibidos:
    0
    Respuesta: Pidanme Acorde De Guitarra

    Aca ta: :D

    INTRO:

    Cm G# D# A#
    e----------------------------------------------------|
    B-------4---------4----------4----------3------------|
    G---------5---------5------3---3----------3----------|
    D-----5---------6--------5----------3----------------|
    A---3---------------------------------1--------------|
    E-------------4--------------------------------------|
    Cm G# D# A#
    e----------------------------------------------------|
    B-------4---------4----------4------3----------------|
    G---------5---------5------3---3----3----------------|
    D-----5---------6--------5----------3----------------|
    A---3-------------------------------1----------------|
    E-------------4--------------------------------------|

    EST.1

    D# G#
    e------------------------------------------|
    B-----4---------4---------4---------4------|
    G---3---3-----3---3---------5---------5----|
    D-5---------5-----------6---------6--------|
    A------------------------------------------|
    E---------------------4---------4----------|
    Sabes no pido nada más que estar entre tus

    D# G# Cm Fm D#
    e-------------------------------------------------------------------|
    B-----4----------4------------4----------4-------------1----------4----|
    G---3---3------3---3------------5----------5-------------1------3---3--|
    D-5----------5--------------6----------5-------------3--------5--------|
    A------------------------------------3---------------------------------|
    E-------------------------4------------------------1-------------------|
    brazos y huir de todo el mal q`ah todo e renunciado

    A#
    e----------------------|
    B-----4--------3-------|
    G---3---3------3-------|
    D-5------------3-------|
    A--------------1-------|
    E----------------------|
    por estar junto a ti...

    EST.2

    D# G#
    Sabes no dejo de pensar
    D#
    que estoy enamorado
    G#
    te quiero confesar
    Cm Fm D#
    que soy solo un esclavo
    A#
    que no sabe vivir sin ti


    CORO

    Cm G# D#
    Cuando llegaste tú
    A# Cm
    te metiste en mi ser
    G# D#
    Encendiste la luz
    A# Fm
    me llenaste de fe
    G#
    tanto tiempo busque
    Fm
    pero al fin te encontré
    D# A#
    tan perfecta como te imagine nou nouoouuoo


    Cm G# D#
    Como aguja en un pajar
    A# Cm
    te busque sin cesar
    G# D#
    como huella en el mar
    A# Fm
    tan difícil de hallar
    G#
    tanto tiempo busque
    Fm
    pero al fin te encontré
    D# A#
    tan perfectaaaa como te imagine


    Cm G# D# A#
    e----------------------------------------------------|
    B-------4---------4----------4----------3------------|
    G---------5---------5------3---3----------3----------|
    D-----5---------6--------5----------3----------------|
    A---3---------------------------------1--------------|
    E-------------4--------------------------------------|
    Cm G# D# A#
    e----------------------------------------------------|
    B-------4---------4----------4------3----------------|
    G---------5---------5------3---3----3----------------|
    D-----5---------6--------5----------3----------------|
    A---3-------------------------------1----------------|
    E-------------4--------------------------------------|


    EST. 3

    D# G#
    sabes te quiero confesar
    D#
    que te encuentro irresistible
    G#
    no dejo de pensar
    Cm Fm D#
    que haría lo imposible
    A#
    por quedarme cerca de ti


    CORO

    Cm G# D#
    Cuando llegaste tú
    A# Cm
    te metiste en mi ser
    G# D#
    Encendiste la luz
    A# Fm
    me llenaste de fe
    G#
    tanto tiempo busque
    Fm
    pero al fin te encontré
    D# A#
    tan perfecta como te imagine nou nouououo


    Cm G# D#
    Como aguja en un pajar
    A# Cm
    te busque sin cesar
    G# D#
    como huella en el mar
    A# Fm
    tan difícil de hallar
    G#
    tanto tiempo busque
    Fm
    pero al fin te encontré
    D# A#
    tan perfectaaaa como te imagine


    Cm G# D# A#
    e----------------------------------------------------|
    B-------4---------4----------4------3----------------|
    G---------5---------5------3---3----3----------------|
    D-----5---------6--------5----------3----------------|
    A---3-------------------------------1----------------|
    E-------------4--------------------------------------|

    FINAL
    RASGUEOS SUAVES HACIA ABAJO
    |---------------------------|
    D# G# |G# A# D#
    e-------------------------------4-----------1-----2--------|
    B-----4---------4---------4-----4-----------3-----3--------|
    G---3---3-----3---3---------5---5-----------3-----2--------|
    D-5---------5-----------6-------6-----------3-----0--------|
    A----------------------------------------------------------|
    E---------------------4------------------------------------|
    sabes no pido nada mas que estar entre tus brazos



    La cancion es bm facil.. ^^! nisiquiera la conocia ya la saque rapiditop..
    p/d: nO t Olvidz dl graciaz..^^!
     
  6. Kai

    KaitoKid
    Expand Collapse
    Cabo

    Mensajes:
    115
    Me Gusta recibidos:
    4
    Respuesta: Pidanme Acorde De Guitarra

    Wake me up when setember ends - Green Day

    Si pudieras sacar el intro y los acordes :eek:ki: Los necesito

    Salu2
     
  7. Dre

    DreaMGirL
    Expand Collapse
    Sargento

    Mensajes:
    346
    Me Gusta recibidos:
    0
    Respuesta: Pidanme Acorde De Guitarra

    yo quiero la de :


    Michel Jacson


    Beat it ....:p todo porfavor desde el intro asta q termine la cancion :notsure:
     
  8. XGr

    XGreendayX
    Expand Collapse
    Sargento

    Mensajes:
    268
    Me Gusta recibidos:
    0
    Respuesta: Pidanme Acorde De Guitarra

    e|----------------|----------------|----------------|----------------|
    B|----3-----3-----|----3-----3-----|----3-----3-----|----3-----3-----|
    G|--0-----0-------|--0-----0-------|--0-----0-------|--0-----0-------|
    D|5-----5---------|5-----5---------|5-----5---------|5-----5---------|
    A|----------------|----------------|----------------|----------------|
    E|----------------|----------------|----------------|----------------|

    Verse 1
    e|----------------|----------------|----------------|----------------|
    B|----3-----3-----|----3-----3-----|----3-----3-----|----3-----3-----|
    G|--0-----0-------|--0-----0-------|--0-----0-------|--0-----0-------|
    D|5-----5---------|4-----4---------|2-----2---------|0-----0---------|
    A|----------------|----------------|----------------|----------------|
    E|----------------|----------------|----------------|----------------|


    e|----0-----0-----|----------------|----------------|----------------|
    B|----1-1---1---1-|----4-----4-----|----3-----3-----|----3-----3-----|
    G|--0-------0-----|--5---5---5---0-|----0-0---0---0-|----0-0---0---0-|
    D|----------------|--------5-----0-|--0-------0-----|--0-------0-----|
    A|3-------3-------|3---------------|----------------|----------------|
    E|----------------|----------------|3-------3-------|3-------3-------|

    Repite el Verso 1 excepeto x que deves tocar lo de abajo..:D
    |----3-----------|
    > |----3-------3-0-|
    > |----0-0-----0---|
    > |--0-------------|
    |----------0-----|
    |3-------2-------|

    SOLO:

    Solo
    Guitar1
    e|----------------|----------------|----------------|----------------|
    B|----12----12--12|----12----12--12|----13----13--13|1515151515151515|
    G|1212--1212--12--|1111--1111--11--|1212--1212--12--|1212121211111111|
    D|----------------|----------------|----------------|----------------|
    A|----------------|----------------|----------------|----------------|
    E|----------------|----------------|----------------|----------------|

    e|----------------|----------------|----------------|----------------|
    B|----12----12--12|----12----12--12|----13----13--13|1515151515151515|
    G|1212--1212--12--|1111--1111--11--|1212--1212--12--|1212121212121212|
    D|----------------|----------------|----------------|----------------|
    A|----------------|----------------|----------------|----------------|
    E|----------------|----------------|----------------|----------------|

    e|----------------|----------------|----------------|
    B|1515151515151515|1515151515151515|1515151515151515|
    G|1111111111111111|1212121212121212|1111111111111111| Go to next
    D|----------------|----------------|----------------| Guitar1 section
    A|----------------|----------------|----------------|
    E|----------------|----------------|----------------|


    Y X SI TIENES PROBLEMAS ACA TE DEJO TODO COMPLETO:
    e|----------------|----------------|----------------|----------------|
    B|----3-----3-----|----3-----3-----|----3-----3-----|----3-----3-----|
    G|--0-----0-------|--0-----0-------|--0-----0-------|--0-----0-------|
    D|5-----5---------|5-----5---------|5-----5---------|5-----5---------|
    A|----------------|----------------|----------------|----------------|
    E|----------------|----------------|----------------|----------------|

    Verse 1
    e|----------------|----------------|----------------|----------------|
    B|----3-----3-----|----3-----3-----|----3-----3-----|----3-----3-----|
    G|--0-----0-------|--0-----0-------|--0-----0-------|--0-----0-------|
    D|5-----5---------|4-----4---------|2-----2---------|0-----0---------|
    A|----------------|----------------|----------------|----------------|
    E|----------------|----------------|----------------|----------------|


    e|----0-----0-----|----------------|----------------|----------------|
    B|----1-1---1---1-|----4-----4-----|----3-----3-----|----3-----3-----|
    G|--0-------0-----|--5---5---5---0-|----0-0---0---0-|----0-0---0---0-|
    D|----------------|--------5-----0-|--0-------0-----|--0-------0-----|
    A|3-------3-------|3---------------|----------------|----------------|
    E|----------------|----------------|3-------3-------|3-------3-------|

    Repeat Verse 1 except final measure, then
    play |----3-----------|
    this > |----3-------3-0-|
    > |----0-0-----0---|
    > |--0-------------|
    |----------0-----|
    |3-------2-------|
    Bridge
    e|----------------|----------------|----0-----0-----|----3-----------|
    B|----0-----0-----|----3-----3-----|----1-1---1-----|----3-------3-0-|
    G|----0-0---0-----|----4-----4-----|--0-------0---0-|----0-0-----0---|
    D|--2-------2---0-|--4---4-------4-|--------------0-|--0-------------|
    A|----------------|2-------2-------|3-------3-------|----------0-----|
    E|0-------0-------|----------------|----------------|3-------2-------|


    e|----------------|----------------|----0-----0-----|----2-----2-----|
    B|----0-----0-----|----3-----3-----|----1-1---1-----|----3-3---3-----|
    G|----0-0---0-----|----4-----4-----|--0-------0---0-|--2---2---2---0-|
    D|--2-------2---0-|--4---4-------4-|----------------|0-------0-------|
    A|----------------|2-------2-------|3-------3-------|----------------|
    E|0-------0-------|----------------|----------------|----------------|

    Repeat Verse 1

    Repeat Intro

    Play 2 measures of Intro, then play
    the first 4 measures of Verse 1

    Chorus
    e|----------------|----------------|----------------|----------------|
    B|5-5-5-5-5-5-5-5-|4-4-4-4-4-4-4-4-|----------------|----------------|
    G|5-5-5-5-5-5-5-5-|5-5-5-5-5-5-5-5-|----------------|----------------|
    D|5-5-5-5-5-5-5-5-|5-5-5-5-5-5-5-5-|5-5-5-5-5-5-5-5-|5-5-5-5-5-5-5-5-|
    A|3-3-3-3-3-3-3-3-|3-3-3-3-3-3-3-3-|5-5-5-5-5-5-5-5-|5-5-5-5-5-5-5-5-|
    E|----------------|----------------|3-3-3-3-3-3-3-3-|3-3-3-3-3-3-3-3-|

    Play the first 4 measures of Verse 1, then,

    e|----------------|----------------|----------------|----------------|
    B|5-5-5-5-5-5-5-5-|4-4-4-4-4-4-4-4-|----------------|----------------|
    G|5-5-5-5-5-5-5-5-|5-5-5-5-5-5-5-5-|----------------|----------------|
    D|5-5-5-5-5-5-5-5-|5-5-5-5-5-5-5-5-|5-5-5-5-5-5-5-5-|5-5-5-5-5-5-5-5-|
    A|3-3-3-3-3-3-3-3-|3-3-3-3-3-3-3-3-|5-5-5-5-5-5-5-5-|5-5-5-5-5-5-5-5-|
    E|----------------|----------------|3-3-3-3-3-3-3-3-|3-3-3-3-2-2-2-2-|

    Distorted Bridge
    e|----------------|----------------|----------------|----------------|
    B|----------------|----3-----------|----------------|----------------|
    G|----------------|4-4-4-4-4-4-4-0-|5-5-5-5-5-5-5-0-|----------------|
    D|2-2-2-2-2-2-2-2-|4-4-4-4-4-4-4-0-|5-5-5-5-5-5-5-0-|5-5-5-5-5-5-5-0-|
    A|2-2-2-2-2-2-2-2-|2-2-2-2-2-2-2-0-|3-3-3-3-3-3-3-0-|5-5-5-5-5-5-5-0-|
    E|0-0-0-0-0-0-0-0-|----------------|----------------|3-3-3-3-2-2-2-0-|

    e|----------------|----------------|----------------|----------------|
    B|----------------|----3-3-3-3-3---|----------------|----------------|
    G|----------------|4-4-4-4-4-4-4-0-|5-5-5-5-5-5-5-5-|7-7-7-7-7-7-7-7-|
    D|2-2-2-2-2-2-2-2-|4-4-4-4-4-4-4-0-|5-5-5-5-5-5-5-5-|7-7-7-7-7-7-7-7-|
    A|2-2-2-2-2-2-2-2-|2-2-2-2-2-2-2-0-|3-3-3-3-3-3-3-3-|5-5-5-5-5-5-5-5-|
    E|0-0-0-0-0-0-0-0-|----------------|----------------|----------------|

    e|----------------|------------3---|----------------|----------------|
    B|----3-----3-----|----3-----3-----|----3-----3-----|----3-----3-----|
    G|--0-----0-------|--0-----0-------|--0-----0-------|--0-----0-------|
    D|5-----5---------|4-----4---------|2-----2---------|0-----0---------|
    A|----------------|----------------|----------------|----------------|
    E|----------------|----------------|----------------|----------------|

    e|----------------|----------------|----------------|----------------|
    B|5-5-5-5-5-5-5-5-|4-4-4-4-4-4-4-4-|----------------|----------------|
    G|5-5-5-5-5-5-5-5-|5-5-5-5-5-5-5-5-|----------------|----------------|
    D|5-5-5-5-5-5-5-5-|5-5-5-5-5-5-5-5-|5-5-5-5-5-5-5-5-|5-5-5-5-5-5-5-5-|
    A|3-3-3-3-3-3-3-3-|3-3-3-3-3-3-3-3-|5-5-5-5-5-5-5-5-|5-5-5-5-5-5-5-5-|
    E|----------------|----------------|3-3-3-3-3-3-3-3-|3-3-3-3-2-2-2-2-|

    Solo
    Guitar1
    e|----------------|----------------|----------------|----------------|
    B|----12----12--12|----12----12--12|----13----13--13|1515151515151515|
    G|1212--1212--12--|1111--1111--11--|1212--1212--12--|1212121211111111|
    D|----------------|----------------|----------------|----------------|
    A|----------------|----------------|----------------|----------------|
    E|----------------|----------------|----------------|----------------|

    e|----------------|----------------|----------------|----------------|
    B|----12----12--12|----12----12--12|----13----13--13|1515151515151515|
    G|1212--1212--12--|1111--1111--11--|1212--1212--12--|1212121212121212|
    D|----------------|----------------|----------------|----------------|
    A|----------------|----------------|----------------|----------------|
    E|----------------|----------------|----------------|----------------|

    e|----------------|----------------|----------------|
    B|1515151515151515|1515151515151515|1515151515151515|
    G|1111111111111111|1212121212121212|1111111111111111| Go to next
    D|----------------|----------------|----------------| Guitar1 section
    A|----------------|----------------|----------------|
    E|----------------|----------------|----------------|

    Guitar2 (Rhythm Guitar) during the Solo

    e|----------------|----------------|----------------|----------------|
    B|----------------|----3-----------|----------------|----------------|
    G|----------------|4-4-4-4-4-4-4-0-|5-5-5-5-5-5-5-0-|----------------|
    D|2-2-2-2-2-2-2-2-|4-4-4-4-4-4-4-0-|5-5-5-5-5-5-5-0-|5-5-5-5-5-5-5-5-|
    A|2-2-2-2-2-2-2-2-|2-2-2-2-2-2-2-0-|3-3-3-3-3-3-3-0-|5-5-5-5-5-5-5-5-|
    E|0-0-0-0-0-0-0-0-|----------------|----------------|3-3-3-3-2-2-2-2-|

    e|----------------|----------------|----------------|----------------|
    B|----------------|----3-----------|----------------|3-3-3-3-3-3-3-3-|
    G|----------------|4-4-4-4-4-4-4-0-|5-5-5-5-5-5-5-5-|2-2-2-2-2-2-2-2-|
    D|2-2-2-2-2-2-2-2-|4-4-4-4-4-4-4-0-|5-5-5-5-5-5-5-5-|0-0-0-0-0-0-0-0-|
    A|2-2-2-2-2-2-2-2-|2-2-2-2-2-2-2-0-|3-3-3-3-3-3-3-3-|----------------|
    E|0-0-0-0-0-0-0-0-|----------------|----------------|----------------|

    e|----------------|----------------|----------------|
    B|3-3-3-3-3-3-3-3-|3-3-3-3-3-3-3-3-|3-3-3-3-3-3-3-3-|
    G|2-2-2-2-2-2-2-2-|2-2-2-2-2-2-2-2-|2-2-2-2-2-2-2-2-|
    D|0-0-0-0-0-0-0-0-|0-0-0-0-0-0-0-0-|0-0-0-0-0-0-0-0-|
    A|----------------|----------------|----------------|
    E|----------------|----------------|----------------|

    Guitar2 (still distortion)
    e|3---------------|
    B|3---------------|
    G|0---------------|
    D|----------------|
    A|----------------|
    E|----------------|

    Guitar1 (clean)
    e|----------------|----------------|----------------|----------------|
    B|----3-----3-----|----3-----3-----|----3-----3-----|----3-----3-----|
    G|--0-----0-------|--0-----0-------|--0-----0-------|--0-----0-------|
    D|5-----5---------|5-----5---------|5-----5---------|5-----5---------|
    A|----------------|----------------|----------------|----------------|
    E|----------------|----------------|----------------|----------------|

    e|----------------|----------------|----------------|----------------
    B|----3-----3-----|----3-----3-----|----3-----3-----|----3-----3-----|
    G|--0-----0-------|--0-----0-------|--0-----0-------|--0-----0-------|
    D|5-----5---------|4-----4---------|2-----2---------|0-----0---------|
    A|----------------|----------------|----------------|----------------|
    E|----------------|----------------|----------------|----------------|

    Distortion for the rest of the song,
    Play the Chorus,

    Play first 4 measures Verse 1,

    Repeat Chorus 3X,

    e| |----------------|----------------|----------------|----------------|
    B| |5-5-5-5-5-5-5-5-|4-4-4-4-4-4-4-4-|----------------|----------------|
    G| |5-5-5-5-5-5-5-5-|5-5-5-5-5-5-5-5-|----------------|----------------|
    D| |5-5-5-5-5-5-5-5-|5-5-5-5-5-5-5-5-|5-5-5-5-5-5-5-5-|5---------------|
    A| |3-3-3-3-3-3-3-3-|3-3-3-3-3-3-3-3-|5-5-5-5-5-5-5-5-|5---------------|
    E| |----------------|----------------|3-3-3-3-3-3-3-3-|3---------------|

    :D me avisas si te ayudo para ponerte un video..^^



    <!--StartFragment-->===== Intro =====

    Guitar 1
    e--0-----------------------+-+-+-+-+-+-+
    B--0-----------------------+-+-+-+-+-+-+
    G--0-----------------------+-+-+-+-+-+-+
    D--0-----------------------+-+-+-+-+-+-+
    A--0-----------------------+-+-+-+-+-+-+
    D--0-----------------------+-+-+-+-+-+-+



    |e----------------------------------------------------|
    |b----------------------------------------------------|
    |g----------------------------------------------------|
    |d-----------3-----------------------3----------------|
    |a-----------0---5-5---/7-5-3-3------0---5-5--/7-5-3--|
    |d-/12\--0-3---------------------0-3------------------|



    e-----------------------------------------------------------------|
    B-----------------------------------------------------------------|
    G--5--5--------------------------------------------------5--5--5--|
    D--5--5--------3-----------------------3-----------------5--5--5--|
    A--3--3------0---5-5---/7-5-3-3------0---5-5---/7-5-3----3--3--3--|
    D--------0-3---------------------0-3------------------------------|

    ===== Verse =====


    Guitar 1 - On the second through this chord progression, don’t palm mute.
    Pm--------------------------------------|
    e------------------------------------------
    B------------------------------------------
    G----------5-5-5-----------5-5-5---3-3-3---
    D--0-0-0---5-5-5---0-0-0---5-5-5---3-3-3---
    A--0-0-0---3-3-3---0-0-0---3-3-3---1-1-1---
    D--0-0-0-----------0-0-0-------------------

    Pm-----------------------------|
    e-----------------------------------|
    b----------------------------+-+-+--|
    g---5-5-5------------------5-+-+-+--|
    d---5-5-5---3-3-3---0-0-0--5-+-+-+--|
    a---3-3-3---3-3-3---0-0-0--3-+-+-+--|
    d-----------3-3-3---0-0-0----+-+-+--|


    Guitar 2 - Start playing the second time over Guitar 1’s
    chord progression.

    e-------------------|
    B-------------------| X A lot, listen closely to
    G--7--10--7------7--| the song for number of times.
    D------------10-----|
    A-------------------|
    D-------------------|

    ===== Chorus =====

    Guitar 1

    e--------------------------|
    B--------------------------|
    G--------------------------| X 6 Then:
    D--------3-----------------|
    A------0---5-5---/7-5-3-3--|
    D--0-3---------------------|

    e------------|
    b------------|
    g--5--5--5\--|
    d--5--5--5\--|
    a--3--3--3\--|
    d------------|


    Guitar 2 - Play the same riff in time with guitar 1.


    ===== Verse =====


    Guitar 1 - On the second through this chord progression, don’t palm mute.
    Pm--------------------------------------|
    e------------------------------------------
    B------------------------------------------
    G----------5-5-5-----------5-5-5---3-3-3---
    D--0-0-0---5-5-5---0-0-0---5-5-5---3-3-3---
    A--0-0-0---3-3-3---0-0-0---3-3-3---1-1-1---
    D--0-0-0-----------0-0-0-------------------

    Pm-----------------------------|
    e-----------------------------------|
    b----------------------------+-+-+--|
    g---5-5-5------------------5-+-+-+--|
    d---5-5-5---3-3-3---0-0-0--5-+-+-+--|
    a---3-3-3---3-3-3---0-0-0--3-+-+-+--|
    d-----------3-3-3---0-0-0----+-+-+--|


    Guitar 2 - Start playing this at the same time as guitar 1,s
    chords.

    e-------------------|
    B-------------------| X same as last time.
    G--7--10--7------7--|
    D------------10-----|
    A-------------------|
    D-------------------|

    ===== Chorus =====

    Guitar 1

    e--------------------------|
    B--------------------------|
    G--------------------------| X 6 Then:
    D--------3-----------------|
    A------0---5-5---/7-5-3-3--|
    D--0-3---------------------|

    e------------|
    b------------|
    g--5--5--5\--|
    d--5--5--5\--|
    a--3--3--3\--|
    d------------|
    Guitar 2 – as before play the same riff as guitar 1.

    ===== Break Down =====


    Guitar 1

    e--------------------------------------|
    B--------------------------------------|
    G--------------------------------------|
    D--0-0-0--0-0-0------0-0-0--0-0-0------|
    A--0-0-0--0-0-0------0-0-0--0-0-0------|
    D--0-0-0--0-0-0------0-0-0--0-0-0------|

    e--------------------------------------|
    b--------------------------------------|
    g--------------------------------------|
    d----0-0-0--0-0-0--------0-0-0--0-0-0--|
    a----0-0-0--0-0-0--------0-0-0--0-0-0--|
    d----0-0-0--0-0-0--------0-0-0--0-0-0--|

    Guitar 2-plays this at same time as guitar 1
    plays the above

    e----------------------------------------|
    B----------------------------------------|
    G----------------------------------------|
    D--0-0-0--0-0-0------0-0-0--0-0-0--------|
    A--0-0-0--0-0-0------0-0-0--0-0-0--3~-5--|
    D--0-0-0--0-0-0------0-0-0--0-0-0--------|

    e----------------------------------------|
    b----------------------------------------|
    g----------------------------------------|
    d------0-0-0--0-0-0---7AH---0-0-0--0-0-0-|
    a------0-0-0--0-0-0---------0-0-0--0-0-0-|
    d------0-0-0--0-0-0---------0-0-0--0-0-0-|


    Guitar 1

    e--------10-10------10-10------10-10------10-10----|
    B--------10-10------10-10------10-10------10-10----|
    G--------10-10------10-10------10-10------10-10----|
    D--------------12~--------12~--------12~--------12~|
    A--------------------------------------------------|
    D--------------------------------------------------|

    e--10-10------10-10--------------------------------|
    b--10-10------10-10--------------------------------|
    g--10-10------10-10--------------------------------|
    d--------12~--------12~--0-0-0--0-0-0--------------|
    a------------------------0-0-0--0-0-0--------------|
    d------------------------0-0-0--0-0-0--------------|


    Guitar 2-same as before play this at the same time
    As guitar 1 plays the above.

    e---------------------------------------------------|
    B---------------------------------------------------|
    G---------------------------------------------------|
    D--------0-0-0------0-0-0------0-0-0------0-0-0-----|
    A--3~-5--0-0-0------0-0-0------0-0-0------0-0-0-3~-5|
    D--------0-0-0------0-0-0------0-0-0------0-0-0-----|

    e---------------------------------------------------|
    b---------------------------------------------------|
    g---------------------------------------------------|
    d---------0-0-0------0-0-0------0-0-0--0-0-0--------|
    a---------0-0-0------0-0-0------0-0-0--0-0-0--------|
    d---------0-0-0------0-0-0------0-0-0--0-0-0--------|
    Solo!!!

    This solo is hard to play and you have to listen well to
    the song for the timing. I cannot play it but my friend who
    helped me write it says it sounds good.

    e|------------------------+------------------------------
    B|---------------6-8-10----+-8/10-13p10------------------
    G|-----------5-7----------------------12-10-13\12-10\7-7
    D|7\6/7--5/7--------------------------------------------
    A|------------------------------------------------------
    d|------------------------------------------------------


    e|-----8--------------------------------13|
    B|-8h10-9\8-8p6-8-6---------6-5-----------|
    G|-----------------------5-7----7--13/14--|
    D|--------------------5/7-----------------|
    A|----------------------------------------|
    d|----------------------------------------|

    e-----------------------------------|
    b-15-15-----------------------------|
    g------12p10------------------------|
    d-----------12-12p10-12-12p10-12-12-|
    a-----------------------------------|
    d-----------------------------------|

    e|+--------------------------------------------------|
    B|-+3p1-3p1-3p1-3p1-1-3/15---------------------------|
    G|-----3---3---3---3------14p12--12-14---------------|
    D|-----------------------------15-----12-10-------/12|
    A|-----------------------------------------12-10-8---|
    d|---------------------------------------------------|


    pick really fast---------------|
    e|----6\5/6-6/8------10/12---5---8---10--12---13--15--17-/22|
    B|---6-------------8----------------------------------------|
    G|--7-------------9-----------------------------------------|
    D|-8------------10------------------------------------------|
    A|----------------------------------------------------------|
    d|----------------------------------------------------------|

    Ending

    e----------------------------------|
    B----------------------------------|
    G----------------------------------| X a lot Then:
    D----------------3-----------------|
    A--------------0---5-5---/7-5-3-3--|
    D-/12\-----0-3---------------------|

    e------------|
    b------------|
    G--5--5--5\--|
    d--5--5--5\--|
    a--3--3--3\--|
    d------------|


    This is my first tab so please go easy.

    You should find the whole song easy except the solo.


    tab legend

    AH-Artificial harmonic
    /-slide in the direction of the line
    +-muted note
    p-pull off
    h-hammer on
    pm-palm mute
    ~-low bend or vibrato

    guitars:-
    guitar 1-rhythm
    guitar 2-lead


    dejenme mis merecidos ``GRACIAS´´:D:D!!:arriba::arriba:
     
  9. IPh

    IPhanTerInT
    Expand Collapse
    Cabo

    Mensajes:
    157
    Me Gusta recibidos:
    0
    Respuesta: Pidanme Acorde De Guitarra

    Buenas quisiera el punteado de guitarra acustica del Grupo: The Allman Brothers Band Cancion Jessica :cool:
     
  10. XGr

    XGreendayX
    Expand Collapse
    Sargento

    Mensajes:
    268
    Me Gusta recibidos:
    0
    Respuesta: Pidanme Acorde De Guitarra

    Super facil:

    ---0-0--------0-0-0---0---0----0-0-------0-0-0---0--0----|
    ---2-2--------3-3-3---2---0----2-2-------3-3-3---2--0----|
    ---2-2--------2-2-2---2---0----2-2-------2-2-2---2--0----|
    ---2-2--------4-4-4---2---0----2-2-------4-4-4---2--0----|
    -0-------0-0-----------------0-------0-0-----------------|
    -------3---------------------------3---------------------|

    ---0-0--------0-0-0---0---0----0-0-------0-0-0---0--0---|
    ---2-2--------3-3-3---2---0----2-2-------3-3-3---2--0---|
    ---2-2--------2-2-2---2---0----2-2-------2-2-2---2--0---|
    ---2-2--------4-4-4---2---0----2-2-------4-4-4---2--0---|
    -0-------0-0-----------------0-------0-0----------------|
    -------3---------------------------3--------------------|


    No te olvides de las Gracias..:D:D









     
  11. use

    useche
    Expand Collapse
    Cabo

    Mensajes:
    134
    Me Gusta recibidos:
    0
    Respuesta: Pidanme Acorde De Guitarra

    dices ser guitarrista ? Dime la de Black fire y Through the Fire and Flames de dragon force ps ...
     
  12. Kai

    KaitoKid
    Expand Collapse
    Cabo

    Mensajes:
    115
    Me Gusta recibidos:
    4
    Respuesta: Pidanme Acorde De Guitarra

    Te agradeceria los acordes y la melodia, no tablaturas :borracho:

    Salu2
     
  13. XGr

    XGreendayX
    Expand Collapse
    Sargento

    Mensajes:
    268
    Me Gusta recibidos:
    0
    Respuesta: Pidanme Acorde De Guitarra

    BLACK FIRE:
    Intro:

    e|---------------------------------------------------------------------------|
    b|-10-8-10-8-10-8----------------8-10-8----10-8-10-8-10-8----8-10-11-10-8-10-|
    g|----------------10--------7-10--------10----------------10-----------------|
    d|-------------------(7h10)--------------------------------------------------|
    a|---------------------------------------------------------------------------|
    E|---------------------------------------------------------------------------|

    e|---------------------------------------------------------------|
    b|-11--10-8-10-8-10-8----------------8-10-8----10-8-10-8-10-8----|
    g|--------------------10--------7-10--------10----------------10-|
    d|-----------------------(7h10)----------------------------------|
    a|---------------------------------------------------------------|
    E|---------------------------------------------------------------|

    e|------------------------------------|
    b|-8-10-11-10-8-10-11-10~~~~~-10-8-10-|
    g|------------------------------------|
    d|------------------------------------|
    a|------------------------------------|
    E|------------------------------------|

    Verse:
    . .. . x4
    e|------------------------------||
    b|------------------------------o|
    g|------------------------------||
    d|-7----------------5-5-----5-5-||
    a|-5555555555555555-3-3--33-3-3-o|
    E|------------------------------||

    Chorus:

    e|-------------------------------------------------------------------|
    b|-------------------------------------------------------------------|
    g|-------------------------------------------------------------------|
    d|-3------------------7--------------7-3---------------2-------------|
    a|-111111111111111111-5555555555555555-111111111111111-000000000000--|
    E|-------------------------------------------------------------------|

    Melody:

    e|-----------------------------------------------8--------------------------|
    b|-10-10-10-11-10-------8-10-8-10-10-10-11-10------11-10-8--11-10-8---------|
    g|----------------10-10-----------------------10--------------------10-8-10-|
    d|--------------------------------------------------------------------------|
    a|--------------------------------------------------------------------------|
    E|--------------------------------------------------------------------------|

    e|-------------------------------------------|
    b|-8-10-8-10---------8---------------10-8-10-|
    g|------------7-9-10---10-9t10---------------|
    d|-------------------------------------------|
    a|-------------------------------------------|
    E|-------------------------------------------|

    Bridge:

    e|-------------------------------------------------------------|
    b|-10---8------------------8-10-11-10-8--8-10-10-8-------------|
    g|--------7-7h10p7----7-10-------------------------7-7h10p7----|
    d|-----------------10---------------------------------------10-|
    a|-------------------------------------------------------------|
    E|-------------------------------------------------------------|

    e|-----------------------------|
    b|------8-10-11-10-8-10-11-10--|
    g|-7-10------------------------|
    d|-----------------------------|
    a|-----------------------------|
    E|-----------------------------|


    TROGUTH THE FIRE ARE FLAMES:
    C5 C5 Bb Ab G5
    |-----------------------------------|
    |-----------------------------------|
    |-5------5--------------------------|
    |-5------5-----8-(8)----6-----5-----|
    |-3----xx3-----8-(8)----6-----5-----|
    |--------------6-(6)----4-----3-----|

    (0:10)(0:13) (0:15) (0:18)
    |-----------------------------------|
    |-----------------------------------|
    |-5------5--------------------------|
    |-5------5-----6-(6)----5---5-5-5---|
    |-3----xx3-----6-(6)----5---5-5-5---|
    |--------------4-(4)----3---3-3-3---|

    GtrI
    |--------------------------------------------------------|
    |--------------------------------------------------------|
    |-888688686888688686--121212812128128121212812128128-----|
    |--------------------------------------------------------|
    |--------------------------------------------------------|
    |--------------------------------------------------------|

    |--------------------------------------------------------|
    |--------------------------------------------------------|
    |-101010810108108101010810108108--888688686--77777-------|
    |--------------------------------------------------------|
    |--------------------------------------------------------|
    |--------------------------------------------------------|

    gtrII
    |-------------------------------------------------------------------------|
    |-------------------------------------------------------------------------|
    |-5---------------12----------------10--------------8---------------7-----|
    |-5---------------12----------------10--------------8---------------7-----|
    |-3-3-3-3-3-3-3-3-10-10-10-10-10-10-8-8-8-8-8-8-8-8-6-6-6-6-6-6-6-6-5-5-5-|
    |-------------------------------------------------------------------------|

    GtrI
    |--------------------------------------------------------|
    |--------------------------------------------------------|
    |-888688686888688686--121212812128128121212812128128-----|
    |--------------------------------------------------------|
    |--------------------------------------------------------|
    |--------------------------------------------------------|
    VERY HEAVY WHAMMY BAR ACTION HERE!!!
    |----------------------------------------------------<5>-|
    |--------------------------------------------------------|
    |-101010810108108101010810108108--888688686--77777-------|
    |--------------------------------------------------------|
    |--------------------------------------------------------|
    |--------------------------------------------------------|
    gtrII
    |-------------------------------------------------------------------------|
    |-------------------------------------------------------------------------|
    |-5---------------12----------------10--------------8---------------7-----|
    |-5---------------12----------------10--------------8---------------7-----|
    |-3-3-3-3-3-3-3-3-10-10-10-10-10-10-8-8-8-8-8-8-8-8-6-6-6-6-6-6-6-6-5-----|
    |-------------------------------------------------------------------------|

    (0:39,0:40)
    on a cold, in a time, in flames, we ride,
    |------------------------------------------------|
    |------------------------------------------------|
    |-5--------------------------------5-5-------5---|
    |-5------------6---------8---------5-5--6-6--5---|
    |-3------------6---------8---------3-3--6-6--3---|
    |--------------4---------6--------------4-4------|

    Crazy keyboard

    gtrI+II
    |---------------------------------------------------------------|
    |---------------------------------------------------------------|
    |-5-----------------5-5-----------------------------------------|
    |-5-----------------5-5--6--------------------8------8----------|
    |-33333333333333333-3-3--6--------------------8------8----------|
    |------------------------4444444444444444----x666666x666666666--|
    pm ................ ............... . ...... ........

    |------------------------------|
    |------------------------------|
    |-----5-----5---5-5-3-5--------|
    |-----5-----5---5-5-3-5--------|
    |-3-3-3-3-3-3---3-3-1-3-3-3-3--|
    |------------------------------|
    pm. . . . . . .

    still working on lead riff that goes over this rhythm section.
    |---------------------------------------------------------------------------|
    |---------------------------------------------------------------------------|
    |-5-----------------5-5-----------------------------------------------------|
    |-5-----------------5-5--6--------------------8---8-<6h8>----------<6h8>----|
    |-33333333333333333-3-3--6--------------------8---8-------8-8-<6h8>---------|
    |------------------------4444444444444444----x6-6---------6-6---------------|
    pm ................ ............... . .
    |--------------------|
    |--------------------|
    |-5-------------5-5--|
    |-5-------------5-5--|
    |-3-3-3-3-3-3-3-3-3--|
    |--------------------|
    pm . . . . . .


    |------------------------------------------------------|herman doing some tapping here
    |------------------------------------------------------|
    |-10------10------10------10------10---5-(5)-(5)-------|
    |-10------10------10------10------10---5-(5)-(5)-------|
    |-8-8-8-8-8-8-8-8-8-8-8-8-8-8-8-8-8----3-(3)-(3)-------|
    |------------------------------------------------------|

    |----------------------------/-/-/-/-/----------------------------------------------------|
    |----------------------------/-/-/-/-/(pick scrape towards the bridge over the pick ups)--|
    |-----------------------------------------------------------------------------------------|
    |--6-----6-----6-----8-(8)----------------------------------------------------------------|
    |--6-----6-----6-----8-(8)----------------------------------------------------------------|
    |--4-4-4-4-4-4-4-4-4-6-(6)----------------------------------------------------------------|

    |----------------------------------------/-/-/-/-/----------------------------------|
    |----------------------------------------/-/-/-/-/(pick scrape towards the bridge---|
    |------------------------------------------------------ over the pick ups)----------|
    |--6-----6-----6-----8-(8)-----8--6--8----------------------------------------------|
    |--6-----6-----6-----8-(8)-----8--6--8----------------------------------------------|
    |--4-4-4-4-4-4-4-4-4-6-(6)-6-6-6--4--6----------------------------------------------|


    chorus
    gtrI
    so now we fly,
    |----------------------------------------------------------------------------------|
    |----------------------------------------------------------------------------------|
    |----------8-----------------------5---5-------------------------------------------|
    |----------8---8-----6----4---<6>--5---5---<3/5>-8---8----------6------------------|
    |----------6---8-----6--4---4------3-3-3-3-------8---8---<6/8>--6------------------|
    |--------------6-6-6-4---------------------------6-6-6-6--------444444444444-------|
    pm . . . . . . . . . ...........

    gtrII + + + +
    |----------------------------------------------------------------------------------|
    |----------------------------------------------------------------------------------|
    |----------8-----------------------------------------------------------------------|
    |----------8---8-----6-------------------------------------------------------------|
    |----------6---8-----6---(12)--(15)--(17)--(19)------------------------------------|
    |--------------6-6-6-4-------------------------------------------------------------|
    pm . .


    [​IMG].[​IMG].[​IMG].[​IMG].[​IMG].[​IMG].


    G D
    Summer has come and passed
    Em Bm
    The innocent can never last
    C Cm G
    wake me up when september ends


    G D
    like my fathers come to pass
    Em Bm
    seven years has gone so fast
    C Cm G
    wake me up when september ends


    Em Bm
    here comes the rain again
    C G
    falling from the stars
    Em Bm
    drenched in my pain again
    C D
    becoming who we are


    G D
    as my memory rests
    Em Bm
    but never forgets what I lost
    C Cm G
    wake me up when september ends


    G D
    summer has come and passed
    Em Bm
    the innocent can never last
    C Cm G
    wake me up when september ends


    G D
    ring out the bells again
    Em Bm
    ike we did when spring began
    C Cm G
    wake me up when september ends


    Em Bm
    here comes the rain again
    C G
    falling from the stars
    Em Bm
    drenched in my pain again
    C D
    becoming who we are


    G D
    as my memory rests
    Em Bm
    but never forgets what I lost
    C Cm G
    wake me up when september ends


    G D
    Summer has come and passed
    Em Bm
    The innocent can never last
    C Cm G
    wake me up when september ends

    G D
    like my father's come to pass
    Em Bm
    twenty years has gone so fast
    C Cm G
    wake me up when september ends
    C Cm G
    wake me up when september ends
    C Cm G

    wake me up when september ends

    espero que sea lo que buscas..:D

    salu2 y denme mis ``gracias´´!!

    x]]]]]]
     
  14. Bil

    Billie-Joe-Armstrong-
    Expand Collapse
    Cabo

    Mensajes:
    147
    Me Gusta recibidos:
    0
    Respuesta: Pidanme Acorde De Guitarra

    cancion : Basket Case
    grupo: la mejor banda del planeta (GREEN DAY)
    gracias de antemano y recuerden viva billie joe
     
  15. XGr

    XGreendayX
    Expand Collapse
    Sargento

    Mensajes:
    268
    Me Gusta recibidos:
    0
    Respuesta: Pidanme Acorde De Guitarra

    Como tu dices.. Viva green day..:D aQui ta la song..:D

    Standard Tuning

    (2x)
    e-----------------------------------------------------------------------------------|
    B-----------------------------------------------------------------------------------|
    G---8-8-8-8-----------------------------------------------8-8-8-8-------------------|
    D---8-8-8-8---8-8-8-8---10-10-10-10---5-5-5-5---6-6-6-6---8-8-8-8---8-8-8-8-8-8-8-8-|
    A---6-6-6-6---8-8-8-8---10-10-10-10---5-5-5-5---6-6-6-6---6-6-6-6---8-8-8-8-8-8-8-8-|
    E-------------6-6-6-6---8--8--8--8----3-3-3-3---4-4-4-4-------------6-6-6-6-6-6-6-6-|

    (2x)
    e---------------------------------------|
    B---------------------------------------|
    G-----------------------8-8-8-8-8-8-8-8-|
    D---6-6-6-6---8-8-8-8---8-8-8-8-8-8-8-8-|
    A---6-6-6-6---8-8-8-8---6-6-6-6-6-6-6-6-|
    E---4-4-4-4---6-6-6-6-------------------|

    (3rd Time)
    e-----------------------------------------------------------------------------------------------------|
    B-----------------------------------------------------------------------------------------------------|
    G---------------------8-8--6-6--5-5-5-5--------------------8-8-------------------8-8------------------|
    D---6-6-6-6--8-8-8-8--8-8--6-6--5-5-5-5--6-6-6-6--8-8-8-8--8-8--8-8--10-10--8-8--8-8--8-8--10-10--8-8-|
    A---6-6-6-6--8-8-8-8--6-6--4-4--3-3-3-3--6-6-6-6--8-8-8-8--6-6--8-8--10-10--8-8--6-6--8-8--10-10--8-8-|
    E---4-4-4-4--6-6-6-6---------------------4-4-4-4--6-6-6-6-------6-6--8--8---6-6-------6-6--8--8---6-6-|

    (2x)
    e-----------------------------------------------------------------------------------|
    B-----------------------------------------------------------------------------------|
    G---8-8-8-8-----------------------------------------------8-8-8-8-------------------|
    D---8-8-8-8---8-8-8-8---10-10-10-10---5-5-5-5---6-6-6-6---8-8-8-8---8-8-8-8-8-8-8-8-|
    A---6-6-6-6---8-8-8-8---10-10-10-10---5-5-5-5---6-6-6-6---6-6-6-6---8-8-8-8-8-8-8-8-|
    E-------------6-6-6-6---8--8--8--8----3-3-3-3---4-4-4-4-------------6-6-6-6-6-6-6-6-|

    (2x)
    e---------------------------------------|
    B---------------------------------------|
    G-----------------------8-8-8-8-8-8-8-8-|
    D---6-6-6-6---8-8-8-8---8-8-8-8-8-8-8-8-|
    A---6-6-6-6---8-8-8-8---6-6-6-6-6-6-6-6-|
    E---4-4-4-4---6-6-6-6-------------------|

    (3rd Time) (2x)
    e---------------------------------------------------------|--------------------------------------------|
    B---------------------------------------------------------|--------------------------------------------|
    G---------------------8-8--6-6--5-5-5-5-------------------|-8-8-------------------8-8------------------|
    D---6-6-6-6--8-8-8-8--8-8--6-6--5-5-5-5--6-6-6-6--8-8-8-8-|-8-8--8-8--10-10--8-8--8-8--8-8--10-10--8-8-|
    A---6-6-6-6--8-8-8-8--6-6--4-4--3-3-3-3--6-6-6-6--8-8-8-8-|-6-6--8-8--10-10--8-8--6-6--8-8--10-10--8-8-|
    E---4-4-4-4--6-6-6-6---------------------4-4-4-4--6-6-6-6-|------6-6--8--8---6-6-------6-6--8--8---6-6-|

    e---------------------|
    B---------------------|
    G---------------------|
    D---6-6-6-6---8-8-8-8-|
    A---6-6-6-6---8-8-8-8-|
    E---4-4-4-4---6-6-6-6-|

    (2x)
    e-----------------------------------------------------------------------------------|
    B-----------------------------------------------------------------------------------|
    G---8-8-8-8-----------------------------------------------8-8-8-8-------------------|
    D---8-8-8-8---8-8-8-8---10-10-10-10---5-5-5-5---6-6-6-6---8-8-8-8---8-8-8-8-8-8-8-8-|
    A---6-6-6-6---8-8-8-8---10-10-10-10---5-5-5-5---6-6-6-6---6-6-6-6---8-8-8-8-8-8-8-8-|
    E-------------6-6-6-6---8--8--8--8----3-3-3-3---4-4-4-4-------------6-6-6-6-6-6-6-6-|

    (2x)
    e---------------------------------------|
    B---------------------------------------|
    G-----------------------8-8-8-8-8-8-8-8-|
    D---6-6-6-6---8-8-8-8---8-8-8-8-8-8-8-8-|
    A---6-6-6-6---8-8-8-8---6-6-6-6-6-6-6-6-|
    E---4-4-4-4---6-6-6-6-------------------|


    e---------------------|
    B---------------------|
    G---------------------|
    D---6-6-6-6---8-8-8-8-|
    A---6-6-6-6---8-8-8-8-|
    E---4-4-4-4---6-6-6-6-|

    (3x)
    e-------------------------------------------|
    B-------------------------------------------|
    G---8-8-8-8---5-5-5-5---------8-8-----------|
    D---8-8-8-8---5-5-5-5---6-6---8-8---8-8-8-8-|
    A---6-6-6-6---3-3-3-3---6-6---6-6---8-8-8-8-|
    E-----------------------4-4---------6-6-6-6-|

    e-------------------------------------------------------------|
    B-------------------------------------------------------------|
    G---8-8-8-8---5-5-5-5---------8-8-------------------8-8-------|
    D---8-8-8-8---5-5-5-5---6-6---8-8---8-8-8-8---6-6---8-8---8-8-|
    A---6-6-6-6---3-3-3-3---6-6---6-6---8-8-8-8---6-6---6-6---8-8-|
    E-----------------------4-4---------6-6-6-6---4-4---------6-6-|

    DE NADA..:D
     
  16. Kai

    KaitoKid
    Expand Collapse
    Cabo

    Mensajes:
    115
    Me Gusta recibidos:
    4
    Respuesta: Pidanme Acorde De Guitarra

    Dia verde consigueme los acordes de

    I Don't Love You - My Chemical Romance

    Pero que sean varios :cool:
     
  17. 1XA

    1XAlexisX1
    Expand Collapse
    Recluta

    Mensajes:
    32
    Me Gusta recibidos:
    0
    Respuesta: Pidanme Acorde De Guitarra

    usas guitar pro hah?
     
  18. XGr

    XGreendayX
    Expand Collapse
    Sargento

    Mensajes:
    268
    Me Gusta recibidos:
    0
    Respuesta: Pidanme Acorde De Guitarra

    <!--StartFragment-->Guitar 1: Ray Toro (i’m guessing)
    E |12--12--12--12--12--12--12—-12--12--12--12--12--13--13--15—-15---|
    B |13--13--13--13--13--13--13--13--13--13--13--13--13--13--13—-13------|
    G |--12--12--12--12--12--12--12--12--12--12--12--12--12--12--12--12----|
    D |--------------------------------------------------------------------|
    A |--------------------------------------------------------------------|
    E |--------------------------------------------------------------------|

    Guitar 2: Frank Iero
    E |----------------------------------------------------------------|
    B |----------------------------------------------------------------|
    G |-----------------------------------55555555555555555------------|
    D |-----------------------------------55555555555555555------------|
    A |-----------------------------------33333333333333333------------|
    E |----------------------------------------------------------------|

    -----------------------------------------------------------------------
    G1
    E |15--15--15--15--13--13--12—-12--12--12--12--12--10--10--10—-10---|
    B |13--13--13--13--13--13--13--13--13--13--13--13--13--13--13—-13---|
    G |--14--14--14--14--14--14--14--14--12--12--12--12--12--12--12--12-|
    D |-----------------------------------------------------------------|
    A |-----------------------------------------------------------------|
    E |-----------------------------------------------------------------|

    G2
    E |----------------------------------------------------------------|
    B |----------------------------------------------------------------|
    G |----------------------------------------------------------------|
    D |7777777777777777-----------------5555555555555555---------------|
    A |7777777777777777-----------------5555555555555555---------------|
    E |5555555555555555-----------------3333333333333333---------------|

    -----------------------------------------------------------------------
    G1
    E |12--12--12--12--10--10--10--10----8-----------------------------|
    B |12--12--12--12--12--12--12--12----8-----------------------------|
    G |--10--10--10--10--12--12--12--12—-9-----------------------------|
    D |----------------------------------------------------------------|
    A |----------------------------------------------------------------|
    E |----------------------------------------------------------------|

    G2
    E |----------------------------------------------------------------|
    B |----------------------------------------------------------------|
    G |------------------5~~~~-----------------------------------------|
    D |33333333-55555555-3~~~~-----------------------------------------|
    A |33333333-55555555-3~~~~-----------------------------------------|
    E |11111111-33333333-----------------------------------------------|

    =/ perdon no consegi muchos.. xD! pareciera que esa cancion esta escondida no encuentro! xD

    voi a segir buscando pero x mientras dime si ese te ayudo.. ^^!
     
  19. <Punk>

    <Punk>
    Expand Collapse
    Cabo

    Mensajes:
    107
    Me Gusta recibidos:
    0
    Respuesta: Pidanme Acorde De Guitarra

    Acordes de los siguientes Tracks:

    - Nirvana - Smells Like teen Spirit.
    - Nirvana - Come as you are.
    - Nirvana - The Man who sold the world.
    - Nirvana - Where did you sleep last night.

    Ahora, más monces, pero igual, postéalas :D

    - 6 Voltios - Lejos.
    - 6 Voltios - Por Ti.
    - Silverstein - Givin Up.
    - Silverstein - Bleeds no more.

    De ahí veo si me interesan otros acordes, pero solo esos por ahora .. ya comencé con Nirvana .. yeeeh :)
     
  20. Kai

    KaitoKid
    Expand Collapse
    Cabo

    Mensajes:
    115
    Me Gusta recibidos:
    4
    Respuesta: Pidanme Acorde De Guitarra

    Indio Punk desde cuando tocas guitarra :S crei que solo tocabas tu quena y tu zampoña >.<

    Salu2 :cool:
     

Compartir esta página